Аккорды к песне Не будите спящих - Героин, полный текст, mp3, видеоклип - Аккордофф.Нет
ACCORDOFF.NET
|  аккорды есть  |  рекламы нет  |

В настоящее время проводятся технические работы.
ТЕКСТЫ ПЕСЕН И АККОРДЫ ДОСТУПНЫ


Loading

Главная » Не будите спящих [ Добавить свой подбор ]

Аккорды к песне Не будите спящих - Героин, полный текст, mp3




Играть желательно в 2 гитары. Бой +соло\перебор.
По проигрышам и переборам по ходу песни примерно так как указано ниже втабах.
Но можно и пофантазировать с переборами.


   == Am ==                    == F ==     == E ==

E||-----------0-------------|-----------1-----------0--|
B||----------------3--1--0--|--------1-----------0-----|
G||--------2----------------|-----2-----------1--------|
D||-----2-------------------|--3-----------2-----------|
A||--0----------------------|--------------------------|
E||-------------------------|--------------------------|

 
   -----------0-------------|-----------1--------------|
   ----------------3--1--0--|--------1-----------0-----|
   --------2----------------|-----2-----------1-----1--|
   -----2-------------------|--3-----------2-----------|
   --0----------------------|--------------------------|
   -------------------------|--------------------------|


   
------------------------0--1--|---1---0--1--------0------0-------|
-------------0---1---3--------|-----------------------4----------|
---2---1--2-------------------|-------------(2)-------------(1)--|
------------------------------|------------------(2)-------------|
--(0)-----------(0)-----------|----------------------------------|
------------------------------|--(1)-----------------------------|


          
------------------------0--1--|---1---0--1-------0-----0-------|
-------------0---1---3--------|---------------------4----------|
---2---1--2-------------------|-------------(2)-----------(1)--|
------------------------------|---3---2--3-------2--1--2-------|
--(0)-----------(0)-----------|--------------------------------|
------------------------------|--(1)---------------------------|


Am
Мальчики,девочки нюхают кокаин
  F              E
Знает ли мама твоя что ты делаешь
Am
ЛДС,Экстази,Метадон­,героин
  F              E
Скорости разные,всё на любителя...

Запретный плод слышишь,брат,в руки не бери
Подумай о семье,подумай о здоровье...
Не нужно,брат,слышишь,­жизнь свою не губи
Не оставайся у родных начитан солью..

Жили-были мальчики,прятали баянчики
Рома и Виталик разминали свои пальчики
Острые иголочки,прятали за полочки
Мета-чёрный героин штырил круче водочки...
Видики,брюлики,всё уходило..туда
Где небритые джамалы мутили дела
Плакали мамы и рассуждали отцы
Как же так своих детей не уберегли..

На флейдах мусора с поличной принимали
Нанося удары,показания выбивали
Но кровь не чистая бежала по рукам
Надежды убивала молодым пацанам...

Запретный плод слышишь,брат,в руки не бери
Я сотни раз им говорил но бесполезно
Не нужно,брат,слышишь,­жизнь свою не губи
И почему же вы поздно так поняли...

В койках больничных их круглыми пичкали
Чёрные вороны вскружили голову
Им....ууеее....

Мальчики,девочки нюхают кокаин
Знает ли мама твоя что ты делаешь
ЛДС,Экстази,Метадон­,героин
Скорости разные,всё на любителя...

Запретный плод слышишь,брат,в руки не бери
Подумай о семье,подумай о здоровье...
Не нужно,брат,слышишь,­жизнь свою не губи
Не оставайся у родных начитан солью..

Не играют мальчики и девочки в игрушки
Прячут от родителей колёса под подушкой
То нарыт, то торчит, то в лечебнице лежит
И помоему не важно о чём мама говорит
А врачи-наркологи бачут всем их голову
Делят между пацанами граммы,чеки по ровну
Мама снова слёзы льёт где же делся мой сынок
Миллионы судеб затерялись в городе дорог

Стой...слышишь,брат­,остановись...
Стой...ты терпенья наберись..
Боль...принесёт запретный плод
Ты найди свою дорогу не жалея ног

Мальчики,девочки нюхают кокаин
Знает ли мама твоя что ты делаешь
ЛДС,Экстази,Метадон­,героин
Скорости разные,всё на любителя...

Запретный плод слышишь,брат,в руки не бери
Подумай о семье,подумай о здоровье...
Не нужно,брат,слышишь,­жизнь свою не губи
Не оставайся у родных начитан солью..


Смотрите также похожие подборы:








Чтобы скачать MP3 Не будите спящих - Героин.mp3 без регистрации бесплатно
нажмите на кнопку ПростоПлеер (см. выше, над текстом песни с аккордами)




Категория: Не будите спящих | Добавил: dva2
Просмотров: 10192 | Рейтинг: 5.0/11
10/10/2010, 10:01
Аккордофф.Нет © 2009 - 2014
Создать сайт бесплатно